Forum Unnamed Large Project Strona Główna
RejestracjaSzukajFAQUżytkownicyGrupyGalerieZaloguj
Oficialna strona internetowa ULP
Idź do strony Poprzedni  1, 2
 
Odpowiedz do tematu    Forum Unnamed Large Project Strona Główna » ULP Zobacz poprzedni temat
Zobacz następny temat
Oficialna strona internetowa ULP
Autor Wiadomość
LeoN
wyjadacz



Dołączył: 31 Maj 2007
Posty: 47
Przeczytał: 0 tematów

Pomógł: 1 raz
Ostrzeżeń: 0/10
Skąd: Włodawa

Post
Są zdjęcia z Jabłonia w Galerii. Informacja do wszystkich surfujacych jeżeli strona z galerią się nie ładuje, lub pasek ładowania pojawia sie przez chwile, znika i nic sie nie dzieje odświeżcie kilka razy, za tym 3 czy 4 razem będzie ok. Jeżeli nie możesz przesuwać czarnym suwakiem, albo nie da się kliknąć zdjęc na pasku powyzej suwaka klikaj na zdjęcie które przegladaz, pokaze sie następne. Jezeli chcesz wyswietlic jakies dalekie zdjecie przybliż kursor do rzegu ekranu i kliknij zdjęcie przy brzegu. Przegladanie zdjec nie jest straszenie uciążliwe (zdjec nie ma w koncu tak duzo), ale informuje co i jak Razz. Obecny stan rzeczy spowodowany jest reklamami które próbują sie przebic przez skrypty galeri przez te flashe i bla bla wszystkie. Niestety nie pojawia sie pasek zwijający reklamy i tak to wygląda. Mimo wszystko przegladanie galerii nie jest uciązliwe wiec zapraszam do tego działu Smile

Pozdrawiam! Smile


Post został pochwalony 0 razy
Czw 17:52, 21 Cze 2007 Zobacz profil autora
KoBi
początkujący



Dołączył: 16 Cze 2007
Posty: 4
Przeczytał: 0 tematów

Ostrzeżeń: 0/10
Skąd: ŁęCzNa

Post
Leon jeśli piszesz wiadomośc powinno być cos takiego jak edycja odpowiedzi... (aby uniknąc pisania posta pod postem) przynajmniej na innych forach tak jest


Post został pochwalony 0 razy
Czw 22:55, 21 Cze 2007 Zobacz profil autora
KoBi
początkujący



Dołączył: 16 Cze 2007
Posty: 4
Przeczytał: 0 tematów

Ostrzeżeń: 0/10
Skąd: ŁęCzNa

Post
wlasnie w ten sposób spamujesz ... tak jak ja teraz


Post został pochwalony 0 razy
Czw 22:56, 21 Cze 2007 Zobacz profil autora
LeoN
wyjadacz



Dołączył: 31 Maj 2007
Posty: 47
Przeczytał: 0 tematów

Pomógł: 1 raz
Ostrzeżeń: 0/10
Skąd: Włodawa

Post
Jeżeli chodzi o tamte posty to rozumiem (wywaliłem je). Po prostu chcialem dać linka do strony z której mozna pobrac Firefoxa(w sumie wystarczy wpisac w gugle ale wtedy poprostu chcialem tego linka z rozmachu wstawic i tyle), ażeby podac linka na tym forum trzeba miec 3 wiadomości. Ale teraz to nie wiem w czym problem. 2 moje posty przed twoimi są z dwóch różnych dni w tym jeden dotyczy aktualnosci na stronie. Po kiego grzyba mam modyfikowac stary post zeby stworzyc nowy? To dwie różne wypowiedzi. Zresztą... spamowanie? Na forum na którym jest kilka osób? Na którym nikogo nie obchodzi jakies rywalizowanie o liczbę napisanych postów w profilu? Tutaj (prawie) wszyscy się znają i mogą sobie wybaczyć dwa posty pod sobą. Nie zamierzałem spamować, zasmiecać forum czy cos w tym stylu. O to że jestem moderatorem zauważylem niedawno Razz i prawie z tych uprawnien nie korzystam...
Trzeba troche wyluzowac Wink
Pozdrawiam Smile


Post został pochwalony 0 razy
Sob 13:23, 23 Cze 2007 Zobacz profil autora
ulalala
Gość






Post
A może mogłabyś Zagi zapodać na forum taba do tego motywu z Błogiegostanu? Smile
Sob 22:08, 23 Cze 2007
ZAGI
wymiatacz



Dołączył: 09 Mar 2007
Posty: 125
Przeczytał: 0 tematów

Pomógł: 1 raz
Ostrzeżeń: 0/10
Skąd: z prowincji

Post
luzik xD hehe

masz tu początek (gitara):

----------------------------------------------------------------------------------------------|
--------------------------------0-------0----------------------------------------------------|
-----------0-----0----------0--------0---0-------2----------0------------0------0---------|
--------0-----0----0-----2--------2-----------3----3-----2----2-------0------0---0-------|
-----2------2-----------3--------------------0---------3-------------2------2--------------|
--3-----------------------------------------------------------------3------------------------|

----------------------------------------------------------------------------------------------|
--------------------------------0-------0----------------------------------------------------|
-----------0-----0----------0--------0---0-------2----------0------------------------------|
--------0-----0----0-----2--------2-----------3----3-----2----2---------------------------|
-----2------2-----------3--------------------0---------3-----------------------------------|
--3------------------------------------------------------------------------------------------|

teraz przytłumienie:

-----------------------------------------------------------------------------------------
-------------------------------------------------------------------------------------------
---------------------------------0--0--0--0--0--0--0--0----2--2--2--0----0-0-0-0---------
---0--0--0--0--0--0--0--0-----2--2--2--2--2--2--2--0----3--3--3--0----2-2-2-0---------
---2--2--2--2--2--2--2--0-----3--3--3--3--3--3--3--0----0--0--0--0----3-3-3-0--------
---3--3--3--3--3--3--3--0------------------------------------------------------------------


----------------------------------------------------
---------------------------------------------------
-----------------------------------------------------
---0--0--0--0--0--0--0--0-------------------------
---2--2--2--2--2--2--2--0------------------------
---3--3--3--3--3--3--3--0-----------------------



a jak chcesz zagrać całą piosenkę, to po prostu do tych rifów dokładasz jeszcze
dwa palce - najmniejszy na pierwszej strunie, trzecim progu i serdeczny na tym samum progu - struna wyżej. i lecisz, tylko że pamiętaj, jak jest bicie to po kolei te dwa dostawione palce podnosisz (najpierw serdeczny, potem mały) i tak w kółko. Ale podnosisz tylko jeśli akordy 'lecą w dół' w górę już zostawiasz.
i akordy lecą tak: Dx, Cx, to samo tylko próg niżej, Cx, Dx. czyli wracasz.
to jest na refren, a na zrwotki

I II III II
----3----- --3--- ----3-- --3---
----3----- --3--- ---3---- --3---
----2----- ------ -------- ------
----3----- --2--- ------- ---2---
---------- --3--- ---2----- ---3---
----------- ------ ---3------ ------

i tyle - banalny kawał. Mam nadzieje że w miarę czytelnie zapisałam i wytłumaczyłam hehe Smile powodzenia życzę i pozdrawiam


Post został pochwalony 0 razy
Nie 10:23, 24 Cze 2007 Zobacz profil autora
ulalala
Gość






Post
Dzięki Very Happy To Ty wymyśliłaś ten kawałek? Długo już grasz na gitarze?Very Happy
Nie 10:57, 24 Cze 2007
ZAGI
wymiatacz



Dołączył: 09 Mar 2007
Posty: 125
Przeczytał: 0 tematów

Pomógł: 1 raz
Ostrzeżeń: 0/10
Skąd: z prowincji

Post
tak, ja napisałam ten kawałek. Ale to było jakieś pół roku temu hehe - wiem nie ma się czym popisać, nic skomplikowanego, ale myślę, że melodia fajna wyszła. Gram ... od pierwszej, czy drugiej klasy podstawówki, ale moje umiejętności nie są zbyt wielkie, nuty wprawdzie znam, jako-tako sobie radze, ale jak mówię, nie mam się za bardzo czym popisać, miałam takie przerwy - bo jak wiadomo takie 6 czy 7 letnie dziecko nie wie jeszcze co chce więc leciało się na akordach. dopiero od 2006 roku zaczęłam 'jakoś' tam się podciągać. Można powiedzieć, że Uganda mnie co-nieco mobilizuje. Ale muszę się podszkolić, poćwiczyć skale żeby zaczęły się rodzić nowe - być może leprze pomysły. A tak nawiasem, to zapraszam do rejestracji Smile


Post został pochwalony 0 razy
Nie 19:36, 24 Cze 2007 Zobacz profil autora
LeoN
wyjadacz



Dołączył: 31 Maj 2007
Posty: 47
Przeczytał: 0 tematów

Pomógł: 1 raz
Ostrzeżeń: 0/10
Skąd: Włodawa

Post
Ponieważ miałem gotową stronę informacyjną o kszaku przerobilem "nieco" zdjecie w dziale "zespół". Oto efekty, poszczególne etapy pracy (sprzed i po) w montowaniu kszaka z tego genialnego zdjęcia Razz no i Janek znikł Razz. Taki mały i zupełnie nieprofesjonalny fotomontaż Wink Do czasu sesji
Laughing

Wiem, że kszak obrzydliwie wycięty ale na zdjęciu na ulp juz nie widac Razz


[link widoczny dla zalogowanych]



Kszak zmontowany ze zdjęcia z zimowiska i zdjęcia gitary z koncertu w Jabłoniu. Główka z kluczami od basu jest pod paskudnym kontem bo wlasnie w tym miejscu była głowa Lukana Very Happy więc jest ona z innego zdjęcia.

Zapomnialem. "Kompromitujace zdjecie" otwiera sie tylko w IE


Post został pochwalony 0 razy

Ostatnio zmieniony przez LeoN dnia Nie 21:12, 08 Lip 2007, w całości zmieniany 1 raz
Nie 18:31, 08 Lip 2007 Zobacz profil autora
kwako
początkujący



Dołączył: 24 Cze 2007
Posty: 1
Przeczytał: 0 tematów

Ostrzeżeń: 0/10

Post
Zamiast zdjęcia jest baner ósemki Rolling Eyes
Edit:
Ale po odświeżeniu już było zdjęcie Razz Jakieś limity transferu czy co?
Edit:
Ale za to zdjęcie 'kompromitujące' się w ogóle nie pokazuje.


Post został pochwalony 0 razy
Nie 18:46, 08 Lip 2007 Zobacz profil autora
fafsadasfa
stały bywalec



Dołączył: 09 Cze 2007
Posty: 19
Przeczytał: 0 tematów

Ostrzeżeń: 1/10

Post
param param;d


Post został pochwalony 0 razy
Nie 23:47, 08 Lip 2007 Zobacz profil autora
ZAGI
wymiatacz



Dołączył: 09 Mar 2007
Posty: 125
Przeczytał: 0 tematów

Pomógł: 1 raz
Ostrzeżeń: 0/10
Skąd: z prowincji

Post
a ja mam Mozille ;-(


Post został pochwalony 0 razy
Wto 11:00, 10 Lip 2007 Zobacz profil autora
fafsadasfa
stały bywalec



Dołączył: 09 Cze 2007
Posty: 19
Przeczytał: 0 tematów

Ostrzeżeń: 1/10

Post
ja tez mam
Mozilla Firefox !

<zolwik> Zagi xd


Post został pochwalony 0 razy
Wto 23:12, 10 Lip 2007 Zobacz profil autora
ZAGI
wymiatacz



Dołączył: 09 Mar 2007
Posty: 125
Przeczytał: 0 tematów

Pomógł: 1 raz
Ostrzeżeń: 0/10
Skąd: z prowincji

Post
<zolwik> xD


Post został pochwalony 0 razy
Śro 9:36, 11 Lip 2007 Zobacz profil autora
LeoN
wyjadacz



Dołączył: 31 Maj 2007
Posty: 47
Przeczytał: 0 tematów

Pomógł: 1 raz
Ostrzeżeń: 0/10
Skąd: Włodawa

Post
Jak widać jest Shoutbox i ankieta. Zapraszam!


Post został pochwalony 0 razy
Nie 15:18, 15 Lip 2007 Zobacz profil autora
Wyświetl posty z ostatnich:    
Odpowiedz do tematu    Forum Unnamed Large Project Strona Główna » ULP Wszystkie czasy w strefie EET (Europa)
Idź do strony Poprzedni  1, 2
Strona 2 z 2

 
Skocz do: 
Nie możesz pisać nowych tematów
Nie możesz odpowiadać w tematach
Nie możesz zmieniać swoich postów
Nie możesz usuwać swoich postów
Nie możesz głosować w ankietach


fora.pl - załóż własne forum dyskusyjne za darmo
Powered by phpBB © 2001, 2005 phpBB Group
Design by Freestyle XL / Music Lyrics.
Regulamin